  0
SECTION
  2
HEADER
  9
$ACADVER
  1
AC1015
  9
$ACADMAINTVER
 70
     6
  9
$DWGCODEPAGE
  3
ANSI_1254
  9
$INSBASE
 10
0.0
 20
0.0
 30
0.0
  9
$EXTMIN
 10
0.0
 20
0.0
 30
0.0
  9
$EXTMAX
 10
279.4
 20
215.9
 30
0.0
  9
$LIMMIN
 10
0.0
 20
0.0
  9
$LIMMAX
 10
279.4
 20
215.9
  9
$ORTHOMODE
 70
     0
  9
$REGENMODE
 70
     1
  9
$FILLMODE
 70
     1
  9
$QTEXTMODE
 70
     0
  9
$MIRRTEXT
 70
     1
  9
$LTSCALE
 40
1.0
  9
$ATTMODE
 70
     1
  9
$TEXTSIZE
 40
3.5
  9
$TRACEWID
 40
1.0
  9
$TEXTSTYLE
  7
Standard
  9
$CLAYER
  8
0
  9
$CELTYPE
  6
ByLayer
  9
$CECOLOR
 62
   256
  9
$CELTSCALE
 40
1.0
  9
$DISPSILH
 70
     0
  9
$DIMSCALE
 40
1.0
  9
$DIMASZ
 40
3.5
  9
$DIMEXO
 40
1.0
  9
$DIMDLI
 40
3.75
  9
$DIMRND
 40
0.0
  9
$DIMDLE
 40
0.0
  9
$DIMEXE
 40
1.0
  9
$DIMTP
 40
0.0
  9
$DIMTM
 40
0.0
  9
$DIMTXT
 40
3.5
  9
$DIMCEN
 40
2.5
  9
$DIMTSZ
 40
0.0
  9
$DIMTOL
 70
     0
  9
$DIMLIM
 70
     0
  9
$DIMTIH
 70
     1
  9
$DIMTOH
 70
     1
  9
$DIMSE1
 70
     0
  9
$DIMSE2
 70
     0
  9
$DIMTAD
 70
     1
  9
$DIMZIN
 70
     0
  9
$DIMBLK
  1

  9
$DIMASO
 70
     1
  9
$DIMSHO
 70
     1
  9
$DIMPOST
  1

  9
$DIMAPOST
  1

  9
$DIMALT
 70
     0
  9
$DIMALTD
 70
     3
  9
$DIMALTF
 40
0.0393700787
  9
$DIMLFAC
 40
1.0
  9
$DIMTOFL
 70
     1
  9
$DIMTVP
 40
0.0
  9
$DIMTIX
 70
     0
  9
$DIMSOXD
 70
     0
  9
$DIMSAH
 70
     0
  9
$DIMBLK1
  1

  9
$DIMBLK2
  1

  9
$DIMSTYLE
  2
ISO-25
  9
$DIMCLRD
 70
     0
  9
$DIMCLRE
 70
     0
  9
$DIMCLRT
 70
     0
  9
$DIMTFAC
 40
1.0
  9
$DIMGAP
 40
1.524
  9
$DIMJUST
 70
     0
  9
$DIMSD1
 70
     0
  9
$DIMSD2
 70
     0
  9
$DIMTOLJ
 70
     0
  9
$DIMTZIN
 70
     0
  9
$DIMALTZ
 70
     0
  9
$DIMALTTZ
 70
     0
  9
$DIMUPT
 70
     0
  9
$DIMDEC
 70
     2
  9
$DIMTDEC
 70
     2
  9
$DIMALTU
 70
     2
  9
$DIMALTTD
 70
     3
  9
$DIMTXSTY
  7
Standard
  9
$DIMAUNIT
 70
     0
  9
$DIMADEC
 70
     2
  9
$DIMALTRND
 40
0.0
  9
$DIMAZIN
 70
     0
  9
$DIMDSEP
 70
    44
  9
$DIMATFIT
 70
     3
  9
$DIMFRAC
 70
     0
  9
$DIMLDRBLK
  1

  9
$DIMLUNIT
 70
     2
  9
$DIMLWD
 70
    -2
  9
$DIMLWE
 70
    -2
  9
$DIMTMOVE
 70
     0
  9
$LUNITS
 70
     2
  9
$LUPREC
 70
     2
  9
$SKETCHINC
 40
1.0
  9
$FILLETRAD
 40
10.0
  9
$AUNITS
 70
     0
  9
$AUPREC
 70
     2
  9
$MENU
  1
.
  9
$ELEVATION
 40
0.0
  9
$PELEVATION
 40
0.0
  9
$THICKNESS
 40
0.0
  9
$LIMCHECK
 70
     0
  9
$CHAMFERA
 40
0.0
  9
$CHAMFERB
 40
0.0
  9
$CHAMFERC
 40
0.0
  9
$CHAMFERD
 40
0.0
  9
$SKPOLY
 70
     0
  9
$TDCREATE
 40
2458985.698974329
  9
$TDUCREATE
 40
2458985.573974329
  9
$TDUPDATE
 40
2458985.698974595
  9
$TDUUPDATE
 40
2458985.573974595
  9
$TDINDWG
 40
0.0000000116
  9
$TDUSRTIMER
 40
0.0000000116
  9
$USRTIMER
 70
     1
  9
$ANGBASE
 50
0.0
  9
$ANGDIR
 70
     0
  9
$PDMODE
 70
     0
  9
$PDSIZE
 40
-1.0
  9
$PLINEWID
 40
0.0
  9
$SPLFRAME
 70
     0
  9
$SPLINETYPE
 70
     6
  9
$SPLINESEGS
 70
     8
  9
$HANDSEED
  5
ED
  9
$SURFTAB1
 70
     6
  9
$SURFTAB2
 70
     6
  9
$SURFTYPE
 70
     6
  9
$SURFU
 70
     6
  9
$SURFV
 70
     6
  9
$UCSBASE
  2

  9
$UCSNAME
  2

  9
$UCSORG
 10
0.0
 20
0.0
 30
0.0
  9
$UCSXDIR
 10
1.0
 20
0.0
 30
0.0
  9
$UCSYDIR
 10
0.0
 20
1.0
 30
0.0
  9
$UCSORTHOREF
  2

  9
$UCSORTHOVIEW
 70
     0
  9
$UCSORGTOP
 10
0.0
 20
0.0
 30
0.0
  9
$UCSORGBOTTOM
 10
0.0
 20
0.0
 30
0.0
  9
$UCSORGLEFT
 10
0.0
 20
0.0
 30
0.0
  9
$UCSORGRIGHT
 10
0.0
 20
0.0
 30
0.0
  9
$UCSORGFRONT
 10
0.0
 20
0.0
 30
0.0
  9
$UCSORGBACK
 10
0.0
 20
0.0
 30
0.0
  9
$PUCSBASE
  2

  9
$PUCSNAME
  2

  9
$PUCSORG
 10
0.0
 20
0.0
 30
0.0
  9
$PUCSXDIR
 10
1.0
 20
0.0
 30
0.0
  9
$PUCSYDIR
 10
0.0
 20
1.0
 30
0.0
  9
$PUCSORTHOREF
  2

  9
$PUCSORTHOVIEW
 70
     0
  9
$PUCSORGTOP
 10
0.0
 20
0.0
 30
0.0
  9
$PUCSORGBOTTOM
 10
0.0
 20
0.0
 30
0.0
  9
$PUCSORGLEFT
 10
0.0
 20
0.0
 30
0.0
  9
$PUCSORGRIGHT
 10
0.0
 20
0.0
 30
0.0
  9
$PUCSORGFRONT
 10
0.0
 20
0.0
 30
0.0
  9
$PUCSORGBACK
 10
0.0
 20
0.0
 30
0.0
  9
$USERI1
 70
     0
  9
$USERI2
 70
     0
  9
$USERI3
 70
     0
  9
$USERI4
 70
     0
  9
$USERI5
 70
     0
  9
$USERR1
 40
0.0
  9
$USERR2
 40
0.0
  9
$USERR3
 40
0.0
  9
$USERR4
 40
0.0
  9
$USERR5
 40
0.0
  9
$WORLDVIEW
 70
     1
  9
$SHADEDGE
 70
     3
  9
$SHADEDIF
 70
    70
  9
$TILEMODE
 70
     1
  9
$MAXACTVP
 70
    64
  9
$PINSBASE
 10
0.0
 20
0.0
 30
0.0
  9
$PLIMCHECK
 70
     0
  9
$PEXTMIN
 10
1.0000000000E+20
 20
1.0000000000E+20
 30
1.0000000000E+20
  9
$PEXTMAX
 10
-1.0000000000E+20
 20
-1.0000000000E+20
 30
-1.0000000000E+20
  9
$PLIMMIN
 10
0.0
 20
0.0
  9
$PLIMMAX
 10
420.0
 20
297.0
  9
$UNITMODE
 70
     0
  9
$VISRETAIN
 70
     1
  9
$PLINEGEN
 70
     0
  9
$PSLTSCALE
 70
     1
  9
$TREEDEPTH
 70
  3020
  9
$CMLSTYLE
  2
Standard
  9
$CMLJUST
 70
     0
  9
$CMLSCALE
 40
20.0
  9
$PROXYGRAPHICS
 70
     1
  9
$MEASUREMENT
 70
     1
  9
$CELWEIGHT
370
    -1
  9
$ENDCAPS
280
     0
  9
$JOINSTYLE
280
     0
  9
$LWDISPLAY
290
     1
  9
$INSUNITS
 70
     4
  9
$HYPERLINKBASE
  1

  9
$STYLESHEET
  1

  9
$XEDIT
290
     1
  9
$CEPSNTYPE
380
     0
  9
$PSTYLEMODE
290
     1
  9
$FINGERPRINTGUID
  2
{19cb7e3b-90b2-497b-af52-726f713ff208}
  9
$VERSIONGUID
  2
{FAEB1C32-E019-11D5-929B-00C0DF256EC4}
  9
$EXTNAMES
290
     1
  9
$PSVPSCALE
 40
0.0
  9
$OLESTARTUP
290
     0
  0
ENDSEC
  0
SECTION
  2
CLASSES
  0
CLASS
  1
ACDBDICTIONARYWDFLT
  2
AcDbDictionaryWithDefault
  3
ObjectDBX Classes
 90
        0
280
     0
281
     0
  0
CLASS
  1
VISUALSTYLE
  2
AcDbVisualStyle
  3
ObjectDBX Classes
 90
     4095
280
     0
281
     0
  0
CLASS
  1
MATERIAL
  2
AcDbMaterial
  3
ObjectDBX Classes
 90
     1153
280
     0
281
     0
  0
CLASS
  1
SCALE
  2
AcDbScale
  3
ObjectDBX Classes
 90
     1153
280
     0
281
     0
  0
CLASS
  1
TABLESTYLE
  2
AcDbTableStyle
  3
ObjectDBX Classes
 90
     4095
280
     0
281
     0
  0
CLASS
  1
MLEADERSTYLE
  2
AcDbMLeaderStyle
  3
ACDB_MLEADERSTYLE_CLASS
 90
     4095
280
     0
281
     0
  0
CLASS
  1
SUN
  2
AcDbSun
  3
SCENEOE
 90
     1153
280
     0
281
     0
  0
CLASS
  1
ACDBPLACEHOLDER
  2
AcDbPlaceHolder
  3
ObjectDBX Classes
 90
        0
280
     0
281
     0
  0
CLASS
  1
LAYOUT
  2
AcDbLayout
  3
ObjectDBX Classes
 90
        0
280
     0
281
     0
  0
ENDSEC
  0
SECTION
  2
TABLES
  0
TABLE
  2
VPORT
  5
8
330
0
100
AcDbSymbolTable
 70
     1
  0
VPORT
  5
29
330
8
100
AcDbSymbolTableRecord
100
AcDbViewportTableRecord
  2
*Active
 70
     0
 10
0.0
 20
0.0
 11
1.0
 21
1.0
 12
139.7
 22
107.95
 13
0.0
 23
0.0
 14
10.0
 24
10.0
 15
10.0
 25
10.0
 16
0.0
 26
0.0
 36
1.0
 17
0.0
 27
0.0
 37
0.0
 40
215.9
 41
1.2941176471
 42
50.0
 43
0.0
 44
0.0
 50
0.0
 51
0.0
 71
     0
 72
  2000
 73
     1
 74
     3
 75
     0
 76
     0
 77
     0
 78
     0
281
     0
 65
     1
110
0.0
120
0.0
130
0.0
111
1.0
121
0.0
131
0.0
112
0.0
122
1.0
132
0.0
 79
     0
146
0.0
  0
ENDTAB
  0
TABLE
  2
LTYPE
  5
5
330
0
100
AcDbSymbolTable
 70
     6
  0
LTYPE
  5
14
330
5
100
AcDbSymbolTableRecord
100
AcDbLinetypeTableRecord
  2
ByBlock
 70
     0
  3

 72
    65
 73
     0
 40
0.0
  0
LTYPE
  5
15
330
5
100
AcDbSymbolTableRecord
100
AcDbLinetypeTableRecord
  2
ByLayer
 70
     0
  3

 72
    65
 73
     0
 40
0.0
  0
LTYPE
  5
16
330
5
100
AcDbSymbolTableRecord
100
AcDbLinetypeTableRecord
  2
Continuous
 70
     0
  3
Solid line
 72
    65
 73
     0
 40
0.0
  0
LTYPE
  5
6E
330
5
100
AcDbSymbolTableRecord
100
AcDbLinetypeTableRecord
  2
HIDDEN
 70
     0
  3
Hidden __ __ __ __ __ __ __ __ __ __ __ __ __ __
 72
    65
 73
     2
 40
1.905
 49
1.27
 74
     0
 49
-0.635
 74
     0
  0
LTYPE
  5
6F
330
5
100
AcDbSymbolTableRecord
100
AcDbLinetypeTableRecord
  2
PHANTOM
 70
     0
  3
Phantom ______  __  __  ______  __  __  ______
 72
    65
 73
     6
 40
12.7
 49
6.35
 74
     0
 49
-1.27
 74
     0
 49
1.27
 74
     0
 49
-1.27
 74
     0
 49
1.27
 74
     0
 49
-1.27
 74
     0
  0
LTYPE
  5
70
330
5
100
AcDbSymbolTableRecord
100
AcDbLinetypeTableRecord
  2
CENTER
 70
     0
  3
Center ____ _ ____ _ ____ _ ____ _ ____ _ ____
 72
    65
 73
     4
 40
10.16
 49
6.35
 74
     0
 49
-1.27
 74
     0
 49
1.27
 74
     0
 49
-1.27
 74
     0
  0
LTYPE
  5
71
330
5
100
AcDbSymbolTableRecord
100
AcDbLinetypeTableRecord
  2
CENTERX2
 70
     0
  3
Center (2x) ________  __  ________  __  _____
 72
    65
 73
     4
 40
20.32
 49
12.7
 74
     0
 49
-2.54
 74
     0
 49
2.54
 74
     0
 49
-2.54
 74
     0
  0
LTYPE
  5
72
330
5
100
AcDbSymbolTableRecord
100
AcDbLinetypeTableRecord
  2
DOT2
 70
     0
  3
Dot (.5x) ........................................
 72
    65
 73
     2
 40
0.635
 49
0.0
 74
     0
 49
-0.635
 74
     0
  0
ENDTAB
  0
TABLE
  2
LAYER
  5
2
330
0
100
AcDbSymbolTable
 70
    17
  0
LAYER
  5
10
330
2
100
AcDbSymbolTableRecord
100
AcDbLayerTableRecord
  2
0
 70
     0
 62
     7
  6
Continuous
370
    -3
390
F
  0
LAYER
  5
73
330
2
100
AcDbSymbolTableRecord
100
AcDbLayerTableRecord
  2
FORMAT
 70
     0
 62
     7
  6
Continuous
370
    -3
390
F
  0
LAYER
  5
74
330
2
100
AcDbSymbolTableRecord
100
AcDbLayerTableRecord
  2
YARDIMCI_GEOMETRI
 70
     0
 62
    -6
  6
Continuous
290
     0
370
    -3
390
F
  0
LAYER
  5
75
330
2
100
AcDbSymbolTableRecord
100
AcDbLayerTableRecord
  2
SAYFA_CERCEVESI
 70
     0
 62
     7
  6
Continuous
370
    25
390
F
  0
LAYER
  5
76
330
2
100
AcDbSymbolTableRecord
100
AcDbLayerTableRecord
  2
ANTET
 70
     0
 62
     7
  6
Continuous
370
    -3
390
F
  0
LAYER
  5
77
330
2
100
AcDbSymbolTableRecord
100
AcDbLayerTableRecord
  2
OLCU
 70
     0
 62
   150
  6
Continuous
370
    -3
390
F
  0
LAYER
  5
78
330
2
100
AcDbSymbolTableRecord
100
AcDbLayerTableRecord
  2
METIN
 70
     0
 62
    96
  6
Continuous
370
    -3
390
F
  0
LAYER
  5
79
330
2
100
AcDbSymbolTableRecord
100
AcDbLayerTableRecord
  2
BALON
 70
     0
 62
     5
  6
Continuous
370
    -3
390
F
  0
LAYER
  5
7A
330
2
100
AcDbSymbolTableRecord
100
AcDbLayerTableRecord
  2
VURGU
 70
     0
 62
     7
  6
Continuous
370
    -3
390
F
  0
LAYER
  5
7B
330
2
100
AcDbSymbolTableRecord
100
AcDbLayerTableRecord
  2
SILIK
 70
     0
 62
     7
  6
Continuous
370
    -3
390
F
  0
LAYER
  5
7C
330
2
100
AcDbSymbolTableRecord
100
AcDbLayerTableRecord
  2
MODEL
 70
     0
 62
     7
  6
Continuous
370
    -3
390
F
  0
LAYER
  5
7D
330
2
100
AcDbSymbolTableRecord
100
AcDbLayerTableRecord
  2
DETAYLANDıRMA
 70
     0
 62
   190
  6
Continuous
370
    -3
390
F
  0
LAYER
  5
7E
330
2
100
AcDbSymbolTableRecord
100
AcDbLayerTableRecord
  2
TOLERANS
 70
     0
 62
   230
  6
Continuous
370
    -3
390
F
  0
LAYER
  5
7F
330
2
100
AcDbSymbolTableRecord
100
AcDbLayerTableRecord
  2
MERKEZ_CIZGILERI
 70
     0
 62
    30
  6
Continuous
370
    -3
390
F
  0
LAYER
  5
80
330
2
100
AcDbSymbolTableRecord
100
AcDbLayerTableRecord
  2
KESIT-DETAY_CIZGILERI
 70
     0
 62
     7
  6
Continuous
370
    -3
390
F
  0
LAYER
  5
81
330
2
100
AcDbSymbolTableRecord
100
AcDbLayerTableRecord
  2
\U+041E\U+0421\U+0415\U+0412\U+042B\U+0415
 70
     0
 62
     7
  6
Continuous
370
    -3
390
F
  0
LAYER
  5
82
330
2
100
AcDbSymbolTableRecord
100
AcDbLayerTableRecord
  2
\U+0412\U+041E\U+0414\U+042F\U+041D\U+042B\U+0415_\U+0417\U+041D\U+0410\U+041A\U+0418
 70
     0
 62
    11
  6
Continuous
370
    -3
390
F
  0
ENDTAB
  0
TABLE
  2
STYLE
  5
3
330
0
100
AcDbSymbolTable
 70
     1
  0
STYLE
  5
11
330
3
100
AcDbSymbolTableRecord
100
AcDbTextStyleTableRecord
  2
Standard
 70
     0
 40
0.0
 41
1.0
 50
0.0
 71
     0
 42
3.5
  3
txt
  4

  0
ENDTAB
  0
TABLE
  2
VIEW
  5
6
330
0
100
AcDbSymbolTable
 70
     0
  0
ENDTAB
  0
TABLE
  2
UCS
  5
7
330
0
100
AcDbSymbolTable
 70
     0
  0
ENDTAB
  0
TABLE
  2
APPID
  5
9
330
0
100
AcDbSymbolTable
 70
     1
  0
APPID
  5
12
330
9
100
AcDbSymbolTableRecord
100
AcDbRegAppTableRecord
  2
ACAD
 70
     0
  0
ENDTAB
  0
TABLE
  2
DIMSTYLE
  5
A
330
0
100
AcDbSymbolTable
 70
     1
100
AcDbDimStyleTable
  0
DIMSTYLE
105
27
330
A
100
AcDbSymbolTableRecord
100
AcDbDimStyleTableRecord
  2
ISO-25
 70
     0
 41
2.5
 42
0.625
 43
3.75
 44
1.25
 73
     0
 74
     0
 77
     1
 78
     8
140
2.5
141
2.5
143
0.0393700787
147
0.625
171
     3
172
     1
178
     0
271
     2
272
     2
274
     3
278
    44
283
     0
284
     8
340
11
  0
ENDTAB
  0
TABLE
  2
BLOCK_RECORD
  5
1
330
0
100
AcDbSymbolTable
 70
     2
  0
BLOCK_RECORD
  5
1F
330
1
100
AcDbSymbolTableRecord
100
AcDbBlockTableRecord
  2
*Model_Space
340
22
  0
BLOCK_RECORD
  5
1B
330
1
100
AcDbSymbolTableRecord
100
AcDbBlockTableRecord
  2
*Paper_Space
340
1E
  0
BLOCK_RECORD
  5
23
330
1
100
AcDbSymbolTableRecord
100
AcDbBlockTableRecord
  2
*Paper_Space0
340
26
  0
BLOCK_RECORD
  5
88
330
1
100
AcDbSymbolTableRecord
100
AcDbBlockTableRecord
  2
SW_CENTERMARKSYMBOL_0
340
0
102
{BLKREFS
331
93
102
}
  0
ENDTAB
  0
ENDSEC
  0
SECTION
  2
BLOCKS
  0
BLOCK
  5
20
330
1F
100
AcDbEntity
  8
0
100
AcDbBlockBegin
  2
*Model_Space
 70
     0
 10
0.0
 20
0.0
 30
0.0
  3
*Model_Space
  1

  0
ENDBLK
  5
21
330
1F
100
AcDbEntity
  8
0
100
AcDbBlockEnd
  0
BLOCK
  5
1C
330
1B
100
AcDbEntity
 67
     1
  8
0
100
AcDbBlockBegin
  2
*Paper_Space
 70
     0
 10
0.0
 20
0.0
 30
0.0
  3
*Paper_Space
  1

  0
ENDBLK
  5
1D
330
1B
100
AcDbEntity
 67
     1
  8
0
100
AcDbBlockEnd
  0
BLOCK
  5
24
330
23
100
AcDbEntity
  8
0
100
AcDbBlockBegin
  2
*Paper_Space0
 70
     0
 10
0.0
 20
0.0
 30
0.0
  3
*Paper_Space0
  1

  0
ENDBLK
  5
25
330
23
100
AcDbEntity
  8
0
100
AcDbBlockEnd
  0
BLOCK
  5
89
330
88
100
AcDbEntity
  8
0
100
AcDbBlockBegin
  2
SW_CENTERMARKSYMBOL_0
 70
     0
 10
0.0
 20
0.0
 30
0.0
  3
SW_CENTERMARKSYMBOL_0
  1

  0
LINE
  5
8B
330
88
100
AcDbEntity
  8
FORMAT
 62
     0
100
AcDbLine
 10
0.0
 20
0.0
 30
0.0
 11
0.0
 21
2.5
 31
0.0
  0
LINE
  5
8C
330
88
100
AcDbEntity
  8
FORMAT
 62
     0
100
AcDbLine
 10
0.0
 20
0.0
 30
0.0
 11
-2.5
 21
0.0
 31
0.0
  0
LINE
  5
8D
330
88
100
AcDbEntity
  8
FORMAT
 62
     0
100
AcDbLine
 10
0.0
 20
0.0
 30
0.0
 11
0.0
 21
-2.5
 31
0.0
  0
LINE
  5
8E
330
88
100
AcDbEntity
  8
FORMAT
 62
     0
100
AcDbLine
 10
0.0
 20
0.0
 30
0.0
 11
2.5
 21
0.0
 31
0.0
  0
LINE
  5
8F
330
88
100
AcDbEntity
  8
FORMAT
 62
     0
100
AcDbLine
 10
0.0
 20
5.0
 30
0.0
 11
0.0
 21
57.5
 31
0.0
  0
LINE
  5
90
330
88
100
AcDbEntity
  8
FORMAT
 62
     0
100
AcDbLine
 10
-5.0
 20
0.0
 30
0.0
 11
-57.5
 21
0.0
 31
0.0
  0
LINE
  5
91
330
88
100
AcDbEntity
  8
FORMAT
 62
     0
100
AcDbLine
 10
0.0
 20
-5.0
 30
0.0
 11
0.0
 21
-57.5
 31
0.0
  0
LINE
  5
92
330
88
100
AcDbEntity
  8
FORMAT
 62
     0
100
AcDbLine
 10
5.0
 20
0.0
 30
0.0
 11
57.5
 21
0.0
 31
0.0
  0
ENDBLK
  5
8A
330
88
100
AcDbEntity
  8
0
100
AcDbBlockEnd
  0
ENDSEC
  0
SECTION
  2
ENTITIES
  0
CIRCLE
  5
83
330
1F
100
AcDbEntity
  8
0
  6
Continuous
 62
     7
370
    25
100
AcDbCircle
 10
139.395004093
 20
107.5851680021
 30
0.0
 40
55.0
  0
CIRCLE
  5
84
330
1F
100
AcDbEntity
  8
0
  6
Continuous
 62
     7
370
    25
100
AcDbCircle
 10
139.395004093
 20
107.5851680021
 30
0.0
 40
45.00000000000001
  0
CIRCLE
  5
85
330
1F
100
AcDbEntity
  8
0
  6
Continuous
 62
     7
370
    25
100
AcDbCircle
 10
139.395004093
 20
107.5851680021
 30
0.0
 40
44.60573108146967
  0
CIRCLE
  5
86
330
1F
100
AcDbEntity
  8
0
  6
Continuous
 62
     7
370
    25
100
AcDbCircle
 10
139.395004093
 20
107.5851680021
 30
0.0
 40
20.79426891853034
  0
CIRCLE
  5
87
330
1F
100
AcDbEntity
  8
0
  6
Continuous
 62
     7
370
    25
100
AcDbCircle
 10
139.395004093
 20
107.5851680021
 30
0.0
 40
20.40000000000001
  0
INSERT
  5
93
330
1F
100
AcDbEntity
  8
FORMAT
 62
     7
100
AcDbBlockReference
  2
SW_CENTERMARKSYMBOL_0
 10
139.395004093
 20
107.5851680021
 30
0.0
  0
ARC
  5
94
330
1F
100
AcDbEntity
  8
0
  6
Continuous
 62
     7
370
    25
100
AcDbCircle
 10
-113.1512771082
 20
160.5851680021
 30
0.0
 40
2.0
100
AcDbArc
 50
67.0942303416
 51
90.0
  0
ARC
  5
95
330
1F
100
AcDbEntity
  8
0
  6
Continuous
 62
     7
370
    25
100
AcDbCircle
 10
-113.1512771082
 20
54.5851680021
 30
0.0
 40
1.999999999999994
100
AcDbArc
 50
270.0
 51
292.9057696584
  0
LINE
  5
96
330
1F
100
AcDbEntity
  8
0
  6
Continuous
 62
     7
370
    25
100
AcDbLine
 10
-113.1512768415
 20
162.5851677041
 30
0.0
 11
-194.7460867313
 21
162.5851677041
 31
0.0
  0
LINE
  5
97
330
1F
100
AcDbEntity
  8
0
  6
Continuous
 62
     7
370
    25
100
AcDbLine
 10
-194.7460867313
 20
52.5851683001
 30
0.0
 11
-113.1512768415
 21
52.5851683001
 31
0.0
  0
LINE
  5
98
330
1F
100
AcDbEntity
  8
0
  6
Continuous
 62
     7
370
    25
100
AcDbLine
 10
-112.372843906
 20
52.7428747396
 30
0.0
 11
-42.1193264273
 21
82.4274611901
 31
0.0
  0
LINE
  5
99
330
1F
100
AcDbEntity
  8
0
  6
Continuous
 62
     7
370
    25
100
AcDbLine
 10
-42.1193264273
 20
132.7428748141
 30
0.0
 11
-112.372843906
 21
162.4274612646
 31
0.0
  0
ARC
  5
9A
330
1F
100
AcDbEntity
  8
0
  6
Continuous
 62
     7
370
    25
100
AcDbCircle
 10
-41.3408927495
 20
134.5851680021
 30
0.0
 40
2.000000000000007
100
AcDbArc
 50
247.0942303416
 51
270.0
  0
ARC
  5
9B
330
1F
100
AcDbEntity
  8
0
  6
Continuous
 62
     7
370
    25
100
AcDbCircle
 10
-41.3408927495
 20
80.5851680021
 30
0.0
 40
2.000000000000007
100
AcDbArc
 50
90.0
 51
112.9057696584
  0
LINE
  5
9C
330
1F
100
AcDbEntity
  8
0
  6
Continuous
 62
     7
370
    25
100
AcDbLine
 10
13.2539175603
 20
132.5851683746
 30
0.0
 11
-41.3408934918
 21
132.5851683746
 31
0.0
  0
LINE
  5
9D
330
1F
100
AcDbEntity
  8
0
  6
Continuous
 62
     7
370
    25
100
AcDbLine
 10
-41.3408934918
 20
82.5851676296
 30
0.0
 11
13.2539175603
 21
82.5851676296
 31
0.0
  0
LINE
  5
9E
330
1F
100
AcDbEntity
  8
0
  6
Continuous
 62
     7
370
    25
100
AcDbLine
 10
-194.7460867313
 20
162.5851677041
 30
0.0
 11
-194.7460867313
 21
52.5851683001
 31
0.0
  0
LINE
  5
9F
330
1F
100
AcDbEntity
  8
0
  6
Continuous
 62
     7
370
    25
100
AcDbLine
 10
13.2539175603
 20
132.5851683746
 30
0.0
 11
13.2539175603
 21
82.5851676296
 31
0.0
  0
LINE
  5
A0
330
1F
100
AcDbEntity
  8
0
  6
Continuous
 62
     1
370
    25
100
AcDbLine
 10
-112.372843906
 20
162.4274612646
 30
0.0
 11
-112.372843906
 21
52.7428747396
 31
0.0
  0
LINE
  5
A1
330
1F
100
AcDbEntity
  8
0
  6
Continuous
 62
     1
370
    25
100
AcDbLine
 10
-113.1512768415
 20
162.5851677041
 30
0.0
 11
-113.1512768415
 21
52.5851683001
 31
0.0
  0
LINE
  5
A2
330
1F
100
AcDbEntity
  8
0
  6
Continuous
 62
     1
370
    25
100
AcDbLine
 10
-42.1193264273
 20
132.7428748141
 30
0.0
 11
-42.1193264273
 21
82.4274611901
 31
0.0
  0
LINE
  5
A3
330
1F
100
AcDbEntity
  8
0
  6
Continuous
 62
     1
370
    25
100
AcDbLine
 10
-41.3408934918
 20
132.5851683746
 30
0.0
 11
-41.3408934918
 21
82.5851676296
 31
0.0
  0
ARC
  5
A4
330
1F
100
AcDbEntity
  8
0
  6
Continuous
 62
     7
370
    25
100
AcDbCircle
 10
379.1854604579
 20
54.5851680021
 30
0.0
 40
1.999999999999999
100
AcDbArc
 50
247.0942303416
 51
270.0
  0
ARC
  5
A5
330
1F
100
AcDbEntity
  8
0
  6
Continuous
 62
     7
370
    25
100
AcDbCircle
 10
379.1854604579
 20
160.5851680021
 30
0.0
 40
2.0
100
AcDbArc
 50
90.0
 51
112.9057696584
  0
LINE
  5
A6
330
1F
100
AcDbEntity
  8
0
  6
Continuous
 62
     7
370
    25
100
AcDbLine
 10
379.1854601912
 20
52.5851683001
 30
0.0
 11
460.780270081
 21
52.5851683001
 31
0.0
  0
LINE
  5
A7
330
1F
100
AcDbEntity
  8
0
  6
Continuous
 62
     7
370
    25
100
AcDbLine
 10
460.780270081
 20
162.5851677041
 30
0.0
 11
379.1854601912
 21
162.5851677041
 31
0.0
  0
LINE
  5
A8
330
1F
100
AcDbEntity
  8
0
  6
Continuous
 62
     7
370
    25
100
AcDbLine
 10
378.4070272557
 20
162.4274612646
 30
0.0
 11
308.153509777
 21
132.7428748141
 31
0.0
  0
LINE
  5
A9
330
1F
100
AcDbEntity
  8
0
  6
Continuous
 62
     7
370
    25
100
AcDbLine
 10
308.153509777
 20
82.4274611901
 30
0.0
 11
378.4070272557
 21
52.7428747396
 31
0.0
  0
ARC
  5
AA
330
1F
100
AcDbEntity
  8
0
  6
Continuous
 62
     7
370
    25
100
AcDbCircle
 10
307.3750760992
 20
80.5851680021
 30
0.0
 40
2.000000000000012
100
AcDbArc
 50
67.0942303416
 51
90.0
  0
ARC
  5
AB
330
1F
100
AcDbEntity
  8
0
  6
Continuous
 62
     7
370
    25
100
AcDbCircle
 10
307.3750760992
 20
134.5851680021
 30
0.0
 40
2.000000000000012
100
AcDbArc
 50
270.0
 51
292.9057696584
  0
LINE
  5
AC
330
1F
100
AcDbEntity
  8
0
  6
Continuous
 62
     7
370
    25
100
AcDbLine
 10
252.7802657894
 20
82.5851676296
 30
0.0
 11
307.3750768415
 21
82.5851676296
 31
0.0
  0
LINE
  5
AD
330
1F
100
AcDbEntity
  8
0
  6
Continuous
 62
     7
370
    25
100
AcDbLine
 10
307.3750768415
 20
132.5851683746
 30
0.0
 11
252.7802657894
 21
132.5851683746
 31
0.0
  0
LINE
  5
AE
330
1F
100
AcDbEntity
  8
0
  6
Continuous
 62
     7
370
    25
100
AcDbLine
 10
460.780270081
 20
107.5851680021
 30
0.0
 11
460.780270081
 21
162.5851677041
 31
0.0
  0
LINE
  5
AF
330
1F
100
AcDbEntity
  8
0
  6
Continuous
 62
     7
370
    25
100
AcDbLine
 10
460.780270081
 20
52.5851683001
 30
0.0
 11
460.780270081
 21
107.5851680021
 31
0.0
  0
LINE
  5
B0
330
1F
100
AcDbEntity
  8
0
  6
Continuous
 62
     7
370
    25
100
AcDbLine
 10
252.7802657894
 20
107.5851680021
 30
0.0
 11
252.7802657894
 21
132.5851683746
 31
0.0
  0
LINE
  5
B1
330
1F
100
AcDbEntity
  8
0
  6
Continuous
 62
     7
370
    25
100
AcDbLine
 10
252.7802657894
 20
82.5851676296
 30
0.0
 11
252.7802657894
 21
107.5851680021
 31
0.0
  0
LINE
  5
B2
330
1F
100
AcDbEntity
  8
0
  6
Continuous
 62
     1
370
    25
100
AcDbLine
 10
378.4070272557
 20
107.5851680021
 30
0.0
 11
378.4070272557
 21
162.4274612646
 31
0.0
  0
LINE
  5
B3
330
1F
100
AcDbEntity
  8
0
  6
Continuous
 62
     1
370
    25
100
AcDbLine
 10
378.4070272557
 20
52.7428747396
 30
0.0
 11
378.4070272557
 21
107.5851680021
 31
0.0
  0
LINE
  5
B4
330
1F
100
AcDbEntity
  8
0
  6
Continuous
 62
     1
370
    25
100
AcDbLine
 10
379.1854601912
 20
107.5851680021
 30
0.0
 11
379.1854601912
 21
162.5851677041
 31
0.0
  0
LINE
  5
B5
330
1F
100
AcDbEntity
  8
0
  6
Continuous
 62
     1
370
    25
100
AcDbLine
 10
379.1854601912
 20
52.5851683001
 30
0.0
 11
379.1854601912
 21
107.5851680021
 31
0.0
  0
LINE
  5
B6
330
1F
100
AcDbEntity
  8
0
  6
Continuous
 62
     1
370
    25
100
AcDbLine
 10
308.153509777
 20
107.5851680021
 30
0.0
 11
308.153509777
 21
132.7428748141
 31
0.0
  0
LINE
  5
B7
330
1F
100
AcDbEntity
  8
0
  6
Continuous
 62
     1
370
    25
100
AcDbLine
 10
308.153509777
 20
82.4274611901
 30
0.0
 11
308.153509777
 21
107.5851680021
 31
0.0
  0
LINE
  5
B8
330
1F
100
AcDbEntity
  8
0
  6
Continuous
 62
     1
370
    25
100
AcDbLine
 10
307.3750768415
 20
107.5851680021
 30
0.0
 11
307.3750768415
 21
132.5851683746
 31
0.0
  0
LINE
  5
B9
330
1F
100
AcDbEntity
  8
0
  6
Continuous
 62
     1
370
    25
100
AcDbLine
 10
307.3750768415
 20
82.5851676296
 30
0.0
 11
307.3750768415
 21
107.5851680021
 31
0.0
  0
ARC
  5
BA
330
1F
100
AcDbEntity
  8
0
  6
Continuous
 62
     7
370
    25
100
AcDbCircle
 10
192.395004093
 20
337.3047612929
 30
0.0
 40
2.0
100
AcDbArc
 50
337.0942303416
 51
0.0
  0
ARC
  5
BB
330
1F
100
AcDbEntity
  8
0
  6
Continuous
 62
     7
370
    25
100
AcDbCircle
 10
86.395004093
 20
337.3047612929
 30
0.0
 40
2.0
100
AcDbArc
 50
180.0
 51
202.9057696584
  0
LINE
  5
BC
330
1F
100
AcDbEntity
  8
0
  6
Continuous
 62
     7
370
    25
100
AcDbLine
 10
194.395003795
 20
337.3047610262
 30
0.0
 11
194.395003795
 21
418.899570916
 31
0.0
  0
LINE
  5
BD
330
1F
100
AcDbEntity
  8
0
  6
Continuous
 62
     7
370
    25
100
AcDbLine
 10
84.3950043911
 20
418.899570916
 30
0.0
 11
84.3950043911
 21
337.3047610262
 31
0.0
  0
LINE
  5
BE
330
1F
100
AcDbEntity
  8
0
  6
Continuous
 62
     7
370
    25
100
AcDbLine
 10
84.5527108306
 20
336.5263280907
 30
0.0
 11
114.237297281
 21
266.272810612
 31
0.0
  0
LINE
  5
BF
330
1F
100
AcDbEntity
  8
0
  6
Continuous
 62
     7
370
    25
100
AcDbLine
 10
164.5527109051
 20
266.272810612
 30
0.0
 11
194.2372973555
 21
336.5263280907
 31
0.0
  0
ARC
  5
C0
330
1F
100
AcDbEntity
  8
0
  6
Continuous
 62
     7
370
    25
100
AcDbCircle
 10
166.395004093
 20
265.4943769342
 30
0.0
 40
2.000000000000012
100
AcDbArc
 50
157.0942303416
 51
180.0
  0
ARC
  5
C1
330
1F
100
AcDbEntity
  8
0
  6
Continuous
 62
     7
370
    25
100
AcDbCircle
 10
112.395004093
 20
265.4943769342
 30
0.0
 40
2.000000000000012
100
AcDbArc
 50
0.0
 51
22.9057696584
  0
LINE
  5
C2
330
1F
100
AcDbEntity
  8
0
  6
Continuous
 62
     7
370
    25
100
AcDbLine
 10
164.3950044656
 20
210.8995666245
 30
0.0
 11
164.3950044656
 21
265.4943776765
 31
0.0
  0
LINE
  5
C3
330
1F
100
AcDbEntity
  8
0
  6
Continuous
 62
     7
370
    25
100
AcDbLine
 10
114.3950037205
 20
265.4943776765
 30
0.0
 11
114.3950037205
 21
210.8995666245
 31
0.0
  0
LINE
  5
C4
330
1F
100
AcDbEntity
  8
0
  6
Continuous
 62
     7
370
    25
100
AcDbLine
 10
194.395003795
 20
418.899570916
 30
0.0
 11
84.3950043911
 21
418.899570916
 31
0.0
  0
LINE
  5
C5
330
1F
100
AcDbEntity
  8
0
  6
Continuous
 62
     7
370
    25
100
AcDbLine
 10
164.3950044656
 20
210.8995666245
 30
0.0
 11
114.3950037205
 21
210.8995666245
 31
0.0
  0
LINE
  5
C6
330
1F
100
AcDbEntity
  8
0
  6
Continuous
 62
     1
370
    25
100
AcDbLine
 10
194.2372973555
 20
336.5263280907
 30
0.0
 11
84.5527108306
 21
336.5263280907
 31
0.0
  0
LINE
  5
C7
330
1F
100
AcDbEntity
  8
0
  6
Continuous
 62
     1
370
    25
100
AcDbLine
 10
194.395003795
 20
337.3047610262
 30
0.0
 11
84.3950043911
 21
337.3047610262
 31
0.0
  0
LINE
  5
C8
330
1F
100
AcDbEntity
  8
0
  6
Continuous
 62
     1
370
    25
100
AcDbLine
 10
164.5527109051
 20
266.272810612
 30
0.0
 11
114.237297281
 21
266.272810612
 31
0.0
  0
LINE
  5
C9
330
1F
100
AcDbEntity
  8
0
  6
Continuous
 62
     1
370
    25
100
AcDbLine
 10
164.3950044656
 20
265.4943776765
 30
0.0
 11
114.3950037205
 21
265.4943776765
 31
0.0
  0
ARC
  5
CA
330
1F
100
AcDbEntity
  8
0
  6
Continuous
 62
     7
370
    25
100
AcDbCircle
 10
86.395004093
 20
-115.724421358
 30
0.0
 40
2.0
100
AcDbArc
 50
157.0942303416
 51
180.0
  0
ARC
  5
CB
330
1F
100
AcDbEntity
  8
0
  6
Continuous
 62
     7
370
    25
100
AcDbCircle
 10
192.395004093
 20
-115.724421358
 30
0.0
 40
2.0
100
AcDbArc
 50
0.0
 51
22.9057696584
  0
LINE
  5
CC
330
1F
100
AcDbEntity
  8
0
  6
Continuous
 62
     7
370
    25
100
AcDbLine
 10
84.3950043911
 20
-115.7244210913
 30
0.0
 11
84.3950043911
 21
-197.3192309811
 31
0.0
  0
LINE
  5
CD
330
1F
100
AcDbEntity
  8
0
  6
Continuous
 62
     7
370
    25
100
AcDbLine
 10
194.395003795
 20
-197.3192309811
 30
0.0
 11
194.395003795
 21
-115.7244210913
 31
0.0
  0
LINE
  5
CE
330
1F
100
AcDbEntity
  8
0
  6
Continuous
 62
     7
370
    25
100
AcDbLine
 10
194.2372973555
 20
-114.9459881559
 30
0.0
 11
164.5527109051
 21
-44.6924706772
 31
0.0
  0
LINE
  5
CF
330
1F
100
AcDbEntity
  8
0
  6
Continuous
 62
     7
370
    25
100
AcDbLine
 10
114.237297281
 20
-44.6924706772
 30
0.0
 11
84.5527108306
 21
-114.9459881559
 31
0.0
  0
ARC
  5
D0
330
1F
100
AcDbEntity
  8
0
  6
Continuous
 62
     7
370
    25
100
AcDbCircle
 10
112.395004093
 20
-43.9140369993
 30
0.0
 40
2.000000000000007
100
AcDbArc
 50
337.0942303416
 51
0.0
  0
ARC
  5
D1
330
1F
100
AcDbEntity
  8
0
  6
Continuous
 62
     7
370
    25
100
AcDbCircle
 10
166.395004093
 20
-43.9140369993
 30
0.0
 40
2.000000000000007
100
AcDbArc
 50
180.0
 51
202.9057696584
  0
LINE
  5
D2
330
1F
100
AcDbEntity
  8
0
  6
Continuous
 62
     7
370
    25
100
AcDbLine
 10
114.3950037205
 20
10.6807733104
 30
0.0
 11
114.3950037205
 21
-43.9140377417
 31
0.0
  0
LINE
  5
D3
330
1F
100
AcDbEntity
  8
0
  6
Continuous
 62
     7
370
    25
100
AcDbLine
 10
164.3950044656
 20
-43.9140377417
 30
0.0
 11
164.3950044656
 21
10.6807733104
 31
0.0
  0
LINE
  5
D4
330
1F
100
AcDbEntity
  8
0
  6
Continuous
 62
     7
370
    25
100
AcDbLine
 10
84.3950043911
 20
-197.3192309811
 30
0.0
 11
194.395003795
 21
-197.3192309811
 31
0.0
  0
LINE
  5
D5
330
1F
100
AcDbEntity
  8
0
  6
Continuous
 62
     7
370
    25
100
AcDbLine
 10
114.3950037205
 20
10.6807733104
 30
0.0
 11
164.3950044656
 21
10.6807733104
 31
0.0
  0
LINE
  5
D6
330
1F
100
AcDbEntity
  8
0
  6
Continuous
 62
     1
370
    25
100
AcDbLine
 10
84.5527108306
 20
-114.9459881559
 30
0.0
 11
194.2372973555
 21
-114.9459881559
 31
0.0
  0
LINE
  5
D7
330
1F
100
AcDbEntity
  8
0
  6
Continuous
 62
     1
370
    25
100
AcDbLine
 10
84.3950043911
 20
-115.7244210913
 30
0.0
 11
194.395003795
 21
-115.7244210913
 31
0.0
  0
LINE
  5
D8
330
1F
100
AcDbEntity
  8
0
  6
Continuous
 62
     1
370
    25
100
AcDbLine
 10
114.237297281
 20
-44.6924706772
 30
0.0
 11
164.5527109051
 21
-44.6924706772
 31
0.0
  0
LINE
  5
D9
330
1F
100
AcDbEntity
  8
0
  6
Continuous
 62
     1
370
    25
100
AcDbLine
 10
114.3950037205
 20
-43.9140377417
 30
0.0
 11
164.3950044656
 21
-43.9140377417
 31
0.0
  0
LINE
  5
DA
330
1F
100
AcDbEntity
  8
0
  6
Continuous
 62
     7
370
    25
100
AcDbLine
 10
382.4569133798
 20
-56.6256504515
 30
0.0
 11
324.7606699971
 21
-23.3183181132
 31
0.0
  0
LINE
  5
DB
330
1F
100
AcDbEntity
  8
0
  6
Continuous
 62
     7
370
    25
100
AcDbLine
 10
269.7651387151
 20
-118.5836962475
 30
0.0
 11
327.4613820978
 21
-151.8910285859
 31
0.0
  0
SPLINE
  5
DC
330
1F
100
AcDbEntity
  8
0
  6
Continuous
 62
     7
370
    25
100
AcDbSpline
210
0.0
220
0.0
230
1.0
 70
     8
 71
     3
 72
    13
 73
     9
 74
     0
 42
0.000000001
 43
0.00000001
 40
0.0
 40
0.0
 40
0.0
 40
0.0
 40
0.0926384510457751
 40
0.3182593772846373
 40
0.5427550244390698
 40
0.7662731437739508
 40
0.9890648134587704
 40
1.0
 40
1.0
 40
1.0
 40
1.0
 10
388.5074912444436
 20
-62.02306699607001
 30
0.0
 10
388.3551663282392
 20
-61.81572955997515
 30
0.0
 10
387.8318541136151
 20
-61.10342184590576
 30
0.0
 10
386.8302117958129
 20
-60.01591997503149
 30
0.0
 10
385.514946856596
 20
-58.7609829679045
 30
0.0
 10
384.0967260345631
 20
-57.66546763611204
 30
0.0
 10
383.0944501804651
 20
-56.96899843619417
 30
0.0
 10
382.5442916444453
 20
-56.67926817920474
 30
0.0
 10
382.5185518286801
 20
-56.66571280752869
 30
0.0
  0
SPLINE
  5
DD
330
1F
100
AcDbEntity
  8
0
  6
Continuous
 62
     7
370
    25
100
AcDbSpline
210
0.0
220
0.0
230
1.0
 70
     8
 71
     3
 72
    13
 73
     9
 74
     0
 42
0.000000001
 43
0.00000001
 40
0.0
 40
0.0
 40
0.0
 40
0.0
 40
0.031254160855617
 40
0.2388803364164614
 40
0.4464388745375706
 40
0.6542127558892024
 40
0.8625240965134807
 40
1.0
 40
1.0
 40
1.0
 40
1.0
 10
327.1065569997932
 20
-151.6692177316347
 30
0.0
 10
327.1810090079657
 20
-151.7181747608197
 30
0.0
 10
327.7500571049947
 20
-152.0923608301782
 30
0.0
 10
328.8923266028151
 20
-152.6592459460724
 30
0.0
 10
330.5302104978603
 20
-153.3590042311002
 30
0.0
 10
332.2471016181083
 20
-153.8964787797207
 30
0.0
 10
333.8162488975336
 20
-154.2666562498067
 30
0.0
 10
334.8342419812358
 20
-154.3929304884371
 30
0.0
 10
335.2389692269874
 20
-154.443133800845
 30
0.0
  0
LINE
  5
DE
330
1F
100
AcDbEntity
  8
0
  6
Continuous
 62
     7
370
    25
100
AcDbLine
 10
337.5374462934
 20
-154.632736432
 30
0.0
 11
396.9419956182
 21
-156.2162629286
 31
0.0
  0
LINE
  5
DF
330
1F
100
AcDbEntity
  8
0
  6
Continuous
 62
     7
370
    25
100
AcDbLine
 10
420.9484263055
 20
-114.6313981283
 30
0.0
 11
389.8700250998
 21
-63.9802291756
 31
0.0
  0
LINE
  5
E0
330
1F
100
AcDbEntity
  8
0
  6
Continuous
 62
     7
370
    25
100
AcDbLine
 10
456.8401016611
 20
-134.2062308806
 30
0.0
 11
419.8605489739
 21
-112.8583895158
 31
0.0
  0
LINE
  5
E1
330
1F
100
AcDbEntity
  8
0
  6
Continuous
 62
     7
370
    25
100
AcDbLine
 10
394.8625814066
 20
-156.1608328781
 30
0.0
 11
431.8421340939
 21
-177.5086742429
 31
0.0
  0
LWPOLYLINE
  5
E2
330
1F
100
AcDbEntity
  8
0
  6
Continuous
 62
     7
370
    25
100
AcDbPolyline
 90
      111
 70
   128
 43
0.0
 10
258.3720316016
 20
-93.4022301338
 10
258.4354573402
 20
-90.8017712511
 10
258.6255317245
 20
-88.1365624719
 10
258.9416330883
 20
-85.4152977299
 10
259.3827314681
 20
-82.6468534316
 10
259.9473859685
 20
-79.8402599386
 10
260.633755299
 20
-77.0046722909
 10
261.4396004084
 20
-74.1493390281
 10
262.3622950211
 20
-71.2835725323
 10
263.3988282716
 20
-68.4167216517
 10
264.5458205095
 20
-65.558136721
 10
265.7995259336
 20
-62.7171437056
 10
267.1558615681
 20
-59.9030061813
 10
268.6103993596
 20
-57.1249055615
 10
270.1583951535
 20
-54.391901556
 10
271.7947992305
 20
-51.7129108788
 10
273.5142747459
 20
-49.0966722687
 10
275.3112148518
 20
-46.5517153119
 10
277.1797558678
 20
-44.0863467546
 10
279.1138049403
 20
-41.7086010762
 10
281.1070518956
 20
-39.4262427711
 10
283.1529955825
 20
-37.2467085564
 10
285.244963628
 20
-35.1771111758
 10
287.3761315353
 20
-33.2242009983
 10
289.5395477086
 20
-31.3943485298
 10
291.7281558435
 20
-29.6935223615
 10
293.9348176468
 20
-28.127266929
 10
296.1523346509
 20
-26.7006960025
 10
298.3734740613
 20
-25.418459514
 10
300.5909910654
 20
-24.284739805
 10
302.7976528687
 20
-23.3032377499
 10
304.9862610036
 20
-22.4771507525
 10
307.1496771769
 20
-21.809176075
 10
309.2808450842
 20
-21.3014921619
 10
311.3728131297
 20
-20.9557546491
 10
313.4187568166
 20
-20.7730925637
 10
315.4120037719
 20
-20.7540969198
 10
317.3460528444
 20
-20.8988370701
 10
319.2145938604
 20
-21.2068340911
 10
321.0115339663
 20
-21.677088163
 10
322.7310094817
 20
-22.3080626006
 10
324.3674135587
 20
-23.0977013465
 10
325.9154093526
 20
-24.0434274516
 10
327.3699471441
 20
-25.1421544838
 10
328.7262827786
 20
-26.3903002176
 10
329.9799882027
 20
-27.7837957612
 10
331.1269804407
 20
-29.3180916422
 10
332.1635136911
 20
-30.9881867054
 10
333.0862083038
 20
-32.7886326774
 10
333.8920534132
 20
-34.7135569813
 10
334.5784227437
 20
-36.7566794681
 10
335.1430772441
 20
-38.9113367518
 10
335.5841756239
 20
-41.1704997011
 10
335.9002769877
 20
-43.5268015768
 10
336.090351372
 20
-45.9725551432
 10
336.1537771106
 20
-48.4997842269
 10
336.090351372
 20
-51.1002431096
 10
335.9002769877
 20
-53.7654518888
 10
335.5841756239
 20
-56.4867166308
 10
335.1430772441
 20
-59.2551609291
 10
334.5784227437
 20
-62.0617544221
 10
333.8920534132
 20
-64.8973420698
 10
333.0862083038
 20
-67.7526753326
 10
332.1635136911
 20
-70.6184418284
 10
331.1269804407
 20
-73.485292709
 10
329.9799882027
 20
-76.3438776397
 10
328.7262827786
 20
-79.1848706551
 10
327.3699471441
 20
-81.9990081794
 10
325.9154093526
 20
-84.7771087992
 10
324.3674135587
 20
-87.5101128047
 10
322.7310094817
 20
-90.1891034818
 10
321.0115339663
 20
-92.805342092
 10
319.2145938604
 20
-95.3502990488
 10
317.3460528444
 20
-97.8156676061
 10
315.4120037719
 20
-100.1934132845
 10
313.4187568166
 20
-102.4757715896
 10
311.3728131297
 20
-104.6553058043
 10
309.2808450842
 20
-106.7249031849
 10
307.1496771769
 20
-108.6778133624
 10
304.9862610036
 20
-110.5076658309
 10
302.7976528687
 20
-112.2084919992
 10
300.5909910654
 20
-113.7747474317
 10
298.3734740613
 20
-115.2013183582
 10
296.1523346509
 20
-116.4835548467
 10
293.9348176468
 20
-117.6172745557
 10
291.7281558435
 20
-118.5987766108
 10
289.5395477086
 20
-119.4248636082
 10
287.3761315353
 20
-120.0928382857
 10
285.244963628
 20
-120.6005221988
 10
283.1529955825
 20
-120.9462597116
 10
281.1070518956
 20
-121.128921797
 10
279.1138049403
 20
-121.1479174409
 10
277.1797558678
 20
-121.0031772906
 10
275.3112148518
 20
-120.6951802696
 10
273.5142747459
 20
-120.2249261977
 10
271.7947992305
 20
-119.5939517601
 10
270.1583951535
 20
-118.8043130142
 10
268.6103993596
 20
-117.8585869091
 10
267.1558615681
 20
-116.7598598769
 10
265.7995259336
 20
-115.5117141431
 10
264.5458205095
 20
-114.1182185995
 10
263.3988282716
 20
-112.5839227185
 10
262.3622950211
 20
-110.9138276553
 10
261.4396004084
 20
-109.1133816833
 10
260.633755299
 20
-107.1884573794
 10
259.9473859685
 20
-105.1453348926
 10
259.3827314681
 20
-102.9906776089
 10
258.9416330883
 20
-100.7315146596
 10
258.6255317245
 20
-98.3752127839
 10
258.4354573402
 20
-95.9294592175
 10
258.3720316016
 20
-93.4022301338
  0
LWPOLYLINE
  5
E3
330
1F
100
AcDbEntity
  8
0
  6
Continuous
 62
     7
370
    25
100
AcDbPolyline
 90
      101
 70
   128
 43
0.0
 10
265.4430979383
 20
-89.3201904263
 10
265.50588884
 20
-86.9767460779
 10
265.6940086642
 20
-84.570056285
 10
266.0067145725
 20
-82.1096193496
 10
266.442776404
 20
-79.6051434157
 10
267.000471406
 20
-77.0665135787
 10
267.6775974058
 20
-74.5037494909
 10
268.4714833469
 20
-71.9269635374
 10
269.3789971916
 20
-69.3463250945
 10
270.3965538235
 20
-66.7720209867
 10
271.5201413896
 20
-64.2142091007
 10
272.745323934
 20
-61.6829834049
 10
274.0672651059
 20
-59.1883359277
 10
275.4807492328
 20
-56.7401096115
 10
276.9801971256
 20
-54.3479678951
 10
278.5596924204
 20
-52.0213490888
 10
280.2130000178
 20
-49.7694374783
 10
281.933596376
 20
-47.6011215023
 10
283.7146905839
 20
-45.5249542102
 10
285.5492533375
 20
-43.5491334927
 10
287.43004394
 20
-41.6814560767
 10
289.3496405946
 20
-39.9292909118
 10
291.3004674055
 20
-38.2995544574
 10
293.2748253288
 20
-36.798680648
 10
295.2649223011
 20
-35.4325882905
 10
297.2629043561
 20
-34.2066691854
 10
299.2608864111
 20
-33.1257673118
 10
301.2509833835
 20
-32.1941426133
 10
303.2253413067
 20
-31.4154712861
 10
305.1761681176
 20
-30.7928310478
 10
307.0957647722
 20
-30.328677091
 10
308.9765553747
 20
-30.0248398993
 10
310.8111181283
 20
-29.8825195473
 10
312.5922123363
 20
-29.9022792389
 10
314.3128086944
 20
-30.0840369448
 10
315.9661162918
 20
-30.4270802347
 10
317.5456115866
 20
-30.930052591
 10
319.0450594794
 20
-31.5909686206
 10
320.4585436063
 20
-32.4072209015
 10
321.7804847782
 20
-33.3755875894
 10
323.0056673226
 20
-34.4922476293
 10
324.1292548887
 20
-35.7527929246
 10
325.1468115206
 20
-37.1522511525
 10
326.0543253653
 20
-38.6850964132
 10
326.8482113064
 20
-40.3452811696
 10
327.5253373062
 20
-42.1262522188
 10
328.0830323083
 20
-44.0209811123
 10
328.5190941397
 20
-46.0219907723
 10
328.831800048
 20
-48.1213851509
 10
329.0199198722
 20
-50.310876418
 10
329.0827107739
 20
-52.5818239344
 10
329.0199198722
 20
-54.9252682828
 10
328.831800048
 20
-57.3319580757
 10
328.5190941397
 20
-59.7923950111
 10
328.0830323083
 20
-62.296870945
 10
327.5253373062
 20
-64.835500782
 10
326.8482113064
 20
-67.3982648698
 10
326.0543253653
 20
-69.9750508233
 10
325.1468115206
 20
-72.5556892662
 10
324.1292548887
 20
-75.129993374
 10
323.0056673226
 20
-77.68780526
 10
321.7804847782
 20
-80.2190309558
 10
320.4585436063
 20
-82.713678433
 10
319.0450594794
 20
-85.1619047492
 10
317.5456115866
 20
-87.5540464656
 10
315.9661162918
 20
-89.8806652719
 10
314.3128086944
 20
-92.1325768824
 10
312.5922123363
 20
-94.3008928584
 10
310.8111181283
 20
-96.3770601505
 10
308.9765553747
 20
-98.352880868
 10
307.0957647722
 20
-100.220558284
 10
305.1761681176
 20
-101.9727234489
 10
303.2253413067
 20
-103.6024599033
 10
301.2509833835
 20
-105.1033337127
 10
299.2608864111
 20
-106.4694260702
 10
297.2629043561
 20
-107.6953451753
 10
295.2649223011
 20
-108.7762470489
 10
293.2748253288
 20
-109.7078717474
 10
291.3004674055
 20
-110.4865430746
 10
289.3496405946
 20
-111.1091833129
 10
287.43004394
 20
-111.5733372697
 10
285.5492533375
 20
-111.8771744614
 10
283.7146905839
 20
-112.0194948134
 10
281.933596376
 20
-111.9997351218
 10
280.2130000178
 20
-111.8179774159
 10
278.5596924204
 20
-111.474934126
 10
276.9801971256
 20
-110.9719617697
 10
275.4807492328
 20
-110.3110457401
 10
274.0672651059
 20
-109.4947934592
 10
272.745323934
 20
-108.5264267713
 10
271.5201413896
 20
-107.4097667314
 10
270.3965538235
 20
-106.1492214361
 10
269.3789971916
 20
-104.7497632082
 10
268.4714833469
 20
-103.2169179475
 10
267.6775974058
 20
-101.5567331911
 10
267.000471406
 20
-99.7757621419
 10
266.442776404
 20
-97.8810332484
 10
266.0067145725
 20
-95.8800235884
 10
265.6940086642
 20
-93.7806292098
 10
265.50588884
 20
-91.5911379427
 10
265.4430979383
 20
-89.3201904263
  0
LINE
  5
E4
330
1F
100
AcDbEntity
  8
0
  6
Continuous
 62
     7
370
    25
100
AcDbLine
 10
382.4569133798
 20
-56.6256504515
 30
0.0
 11
382.5163746805
 21
-56.6601278138
 31
0.0
  0
ARC
  5
E5
330
1F
100
AcDbEntity
  8
0
  6
Continuous
 62
     7
370
    25
100
AcDbCircle
 10
369.4586953014
 20
-76.5566588188
 30
0.0
 40
23.97284365937878
100
AcDbArc
 50
24.2605965644
 51
37.0468794612
  0
ARC
  5
E6
330
1F
100
AcDbEntity
  8
0
  6
Continuous
 62
     7
370
    25
100
AcDbCircle
 10
338.2103289502
 20
-131.0576137619
 30
0.0
 40
23.58486063127417
100
AcDbArc
 50
263.0489806151
 51
275.2870576711
  0
LINE
  5
E7
330
1F
100
AcDbEntity
  8
0
  6
Continuous
 62
     7
370
    25
100
AcDbLine
 10
420.9484263055
 20
-114.6313981283
 30
0.0
 11
421.0229893488
 21
-114.7547628522
 31
0.0
  0
LWPOLYLINE
  5
E8
330
1F
100
AcDbEntity
  8
0
  6
Continuous
 62
     7
370
    25
100
AcDbPolyline
 90
       39
 70
   128
 43
0.0
 10
456.8401016611
 20
-134.2062308806
 10
457.103619563
 20
-134.3649094594
 10
458.0949766603
 20
-135.0933373365
 10
458.9872372971
 20
-135.9713709052
 10
459.7739727619
 20
-136.9926847924
 10
460.4495143036
 20
-138.1499187064
 10
461.0089939613
 20
-139.4347367566
 10
461.4483814424
 20
-140.8378803093
 10
461.7645104651
 20
-142.3492406146
 10
461.9551037825
 20
-143.9579274399
 10
462.0187876706
 20
-145.6523510119
 10
461.9551037825
 20
-147.4203024359
 10
461.7645104651
 20
-149.2490436215
 10
461.4483814424
 20
-151.1253987272
 10
461.0089939613
 20
-153.0358482674
 10
460.4495143036
 20
-154.9666277806
 10
459.7739727619
 20
-156.9038253567
 10
458.9872372971
 20
-158.8334846769
 10
458.0949766603
 20
-160.7417004488
 10
457.103619563
 20
-162.614724867
 10
456.020307262
 20
-164.4390641875
 10
454.8528468022
 20
-166.2015726407
 10
453.6096484557
 20
-167.8895516657
 10
452.2996710618
 20
-169.4908377387
 10
450.9323515635
 20
-170.9938962836
 10
449.5175421158
 20
-172.3878960014
 10
448.0654363292
 20
-173.662792514
 10
446.5864969942
 20
-174.8094020273
 10
445.0913794431
 20
-175.8194623039
 10
443.5908563118
 20
-176.6856958694
 10
442.0957387608
 20
-177.4018615734
 10
440.6167994257
 20
-177.9627990701
 10
439.1646936391
 20
-178.3644682121
 10
437.7498841914
 20
-178.6039727125
 10
436.3825646931
 20
-178.6795876573
 10
435.0725872993
 20
-178.5907692895
 10
433.8293889528
 20
-178.3381565227
 10
432.661928493
 20
-177.9235692251
 10
431.8421340939
 20
-177.5086742429
  0
LWPOLYLINE
  5
E9
330
1F
100
AcDbEntity
  8
0
  6
Continuous
 62
     1
370
    25
100
AcDbPolyline
 90
       57
 70
   128
 43
0.0
 10
382.5163746805
 20
-56.6601278138
 10
383.6116527353
 20
-57.3507597899
 10
385.0661905268
 20
-58.4494868221
 10
386.4225261613
 20
-59.697632556
 10
387.6762315854
 20
-61.0911280995
 10
388.8232238234
 20
-62.6254239806
 10
389.8597570738
 20
-64.2955190438
 10
390.7824516865
 20
-66.0959650158
 10
391.5882967959
 20
-68.0208893197
 10
392.2746661264
 20
-70.0640118064
 10
392.8393206268
 20
-72.2186690901
 10
393.2804190066
 20
-74.4778320394
 10
393.5965203704
 20
-76.8341339152
 10
393.7865947547
 20
-79.2798874816
 10
393.8500204933
 20
-81.8071165652
 10
393.7865947547
 20
-84.407575448
 10
393.5965203704
 20
-87.0727842272
 10
393.2804190066
 20
-89.7940489692
 10
392.8393206268
 20
-92.5624932674
 10
392.2746661264
 20
-95.3690867604
 10
391.5882967959
 20
-98.2046744081
 10
390.7824516865
 20
-101.0600076709
 10
389.8597570738
 20
-103.9257741668
 10
388.8232238234
 20
-106.7926250473
 10
387.6762315854
 20
-109.651209978
 10
386.4225261613
 20
-112.4922029934
 10
385.0661905268
 20
-115.3063405177
 10
383.6116527353
 20
-118.0844411375
 10
382.0636569414
 20
-120.817445143
 10
380.4272528644
 20
-123.4964358202
 10
378.707777349
 20
-126.1126744303
 10
376.9108372431
 20
-128.6576313872
 10
375.0422962271
 20
-131.1229999444
 10
373.1082471546
 20
-133.5007456228
 10
371.1150001993
 20
-135.7831039279
 10
369.0690565124
 20
-137.9626381427
 10
366.9770884669
 20
-140.0322355232
 10
364.8459205596
 20
-141.9851457007
 10
362.6825043863
 20
-143.8149981692
 10
360.4938962514
 20
-145.5158243375
 10
358.2872344481
 20
-147.08207977
 10
356.069717444
 20
-148.5086506965
 10
353.8485780336
 20
-149.790887185
 10
351.6310610295
 20
-150.924606894
 10
349.4243992262
 20
-151.9061089491
 10
347.2357910913
 20
-152.7321959466
 10
345.072374918
 20
-153.400170624
 10
342.9412070107
 20
-153.9078545371
 10
340.8492389652
 20
-154.25359205
 10
338.8032952783
 20
-154.4362541353
 10
336.810048323
 20
-154.4552497792
 10
334.8759992505
 20
-154.310509629
 10
333.0074582345
 20
-154.0025126079
 10
331.2105181286
 20
-153.532258536
 10
329.4910426132
 20
-152.9012840984
 10
327.8546385362
 20
-152.1116453526
 10
327.4613820978
 20
-151.8910285859
  0
LWPOLYLINE
  5
EA
330
1F
100
AcDbEntity
  8
0
  6
Continuous
 62
     1
370
    25
100
AcDbPolyline
 90
       43
 70
   128
 43
0.0
 10
391.3144028666
 20
-66.7065177062
 10
392.0337020568
 20
-68.4425562
 10
392.7181036563
 20
-70.479819896
 10
393.2811381372
 20
-72.6282990271
 10
393.7209721115
 20
-74.8809842349
 10
394.036164684
 20
-77.2305308335
 10
394.2256937934
 20
-79.6692715501
 10
394.2889404079
 20
-82.189252455
 10
394.2256937934
 20
-84.7822563467
 10
394.036164684
 20
-87.4398227151
 10
393.7209721115
 20
-90.1532829117
 10
393.2811381372
 20
-92.913789617
 10
392.7181036563
 20
-95.7123345228
 10
392.0337020568
 20
-98.5397914859
 10
391.2301671215
 20
-101.386937822
 10
390.3101172236
 20
-104.2444870039
 10
389.2765553259
 20
-107.1031175594
 10
388.1328531764
 20
-109.9535065298
 10
386.8827407711
 20
-112.7863553248
 10
385.5302958176
 20
-115.5924216611
 10
384.0799305641
 20
-118.3625560631
 10
382.5363733602
 20
-121.0877231545
 10
380.9046607542
 20
-123.7590320758
 10
379.1901137859
 20
-126.3677714634
 10
377.3983274494
 20
-128.9054276996
 10
375.5351443514
 20
-131.3637274966
 10
373.6066415408
 20
-133.7346546247
 10
371.6191094347
 20
-136.0104712038
 10
369.5790320623
 20
-138.1837534431
 10
367.4930633573
 20
-140.2474174946
 10
365.368006743
 20
-142.1947251549
 10
363.2107934004
 20
-144.0193329127
 10
361.0284608654
 20
-145.7152830114
 10
358.828126687
 20
-147.2770460328
 10
356.6169682594
 20
-148.6995264557
 10
354.4021976329
 20
-149.9780863235
 10
352.1910392054
 20
-151.1085550799
 10
349.9907050269
 20
-152.087243826
 10
347.8083724919
 20
-152.9109612396
 10
345.6511591493
 20
-153.5770189918
 10
343.5261025351
 20
-154.0832494733
 10
341.4401338301
 20
-154.4279936241
 10
340.3835716069
 20
-154.5421335005
  0
LWPOLYLINE
  5
EB
330
1F
100
AcDbEntity
  8
0
  6
Continuous
 62
     1
370
    25
100
AcDbPolyline
 90
       32
 70
   128
 43
0.0
 10
421.0229893488
 20
-114.7547628522
 10
421.3963340355
 20
-115.434631937
 10
421.9593434917
 20
-116.7275545714
 10
422.4015021281
 20
-118.1395497921
 10
422.7196265407
 20
-119.6604434473
 10
422.9114210432
 20
-121.279279333
 10
422.9755066435
 20
-122.9843918189
 10
422.9114210432
 20
-124.763495964
 10
422.7196265407
 20
-126.6037730687
 10
422.4015021281
 20
-128.4919653526
 10
421.9593434917
 20
-130.4144660684
 10
421.3963340355
 20
-132.3574255846
 10
420.7165317108
 20
-134.3068433995
 10
419.9248334545
 20
-136.2486749836
 10
419.0269435793
 20
-138.1689298757
 10
418.0293329434
 20
-140.0537697795
 10
416.9391862674
 20
-141.8896180646
 10
415.7643613044
 20
-143.663243414
 10
414.5133210099
 20
-145.3618697046
 10
413.1950795411
 20
-146.9732588923
 10
411.8191344268
 20
-148.4857988397
 10
410.3954000546
 20
-149.888591903
 10
408.9341342432
 20
-151.1715323028
 10
407.4458651434
 20
-152.3253741786
 10
405.9413160003
 20
-153.3418069622
 10
404.4313271149
 20
-154.2135049911
 10
402.9267779717
 20
-154.9341876727
 10
401.438508872
 20
-155.498664724
 10
399.9772430605
 20
-155.9028659183
 10
398.5535086884
 20
-156.1438815716
 10
397.1775635741
 20
-156.2199740382
 10
396.9419956182
 20
-156.2162629286
  0
LWPOLYLINE
  5
EC
330
1F
100
AcDbEntity
  8
0
  6
Continuous
 62
     1
370
    25
100
AcDbPolyline
 90
       35
 70
   128
 43
0.0
 10
420.3353253198
 20
-113.6321723335
 10
420.3828761845
 20
-113.685547602
 10
421.1696116494
 20
-114.7068614892
 10
421.8451531911
 20
-115.8640954032
 10
422.4046328487
 20
-117.1489134534
 10
422.8440203299
 20
-118.5520570062
 10
423.1601493526
 20
-120.0634173114
 10
423.3507426699
 20
-121.6721041368
 10
423.414426558
 20
-123.3665277087
 10
423.3507426699
 20
-125.1344791328
 10
423.1601493526
 20
-126.9632203183
 10
422.8440203299
 20
-128.839575424
 10
422.4046328487
 20
-130.7500249642
 10
421.8451531911
 20
-132.6808044775
 10
421.1696116494
 20
-134.6180020535
 10
420.3828761845
 20
-136.5476613738
 10
419.4906155478
 20
-138.4558771457
 10
418.4992584505
 20
-140.3289015638
 10
417.4159461494
 20
-142.1532408843
 10
416.2484856897
 20
-143.9157493375
 10
415.0052873431
 20
-145.6037283625
 10
413.6953099493
 20
-147.2050144355
 10
412.327990451
 20
-148.7080729805
 10
410.9131810033
 20
-150.1020726982
 10
409.4610752167
 20
-151.3769692108
 10
407.9821358816
 20
-152.5235787241
 10
406.4870183306
 20
-153.5336390008
 10
404.9864951993
 20
-154.3998725662
 10
403.4913776483
 20
-155.1160382702
 10
402.0124383132
 20
-155.6769757669
 10
400.5603325266
 20
-156.0786449089
 10
399.1455230789
 20
-156.3181494093
 10
397.7782035806
 20
-156.3937643542
 10
396.4682261868
 20
-156.3049459863
 10
395.7700866902
 20
-156.1850243016
  0
ENDSEC
  0
SECTION
  2
OBJECTS
  0
DICTIONARY
  5
C
330
0
100
AcDbDictionary
281
     1
  3
ACAD_GROUP
350
D
  3
ACAD_LAYOUT
350
1A
  3
ACAD_MLINESTYLE
350
17
  3
ACAD_PLOTSETTINGS
350
19
  3
ACAD_PLOTSTYLENAME
350
E
  3
ACAD_SCALELIST
350
47
  0
DICTIONARY
  5
D
102
{ACAD_REACTORS
330
C
102
}
330
C
100
AcDbDictionary
281
     1
  0
DICTIONARY
  5
1A
102
{ACAD_REACTORS
330
C
102
}
330
C
100
AcDbDictionary
281
     1
  3
Layout1
350
1E
  3
Layout2
350
26
  3
Model
350
22
  0
DICTIONARY
  5
17
102
{ACAD_REACTORS
330
C
102
}
330
C
100
AcDbDictionary
281
     1
  3
Standard
350
18
  0
DICTIONARY
  5
19
102
{ACAD_REACTORS
330
C
102
}
330
C
100
AcDbDictionary
281
     1
  0
ACDBDICTIONARYWDFLT
  5
E
102
{ACAD_REACTORS
330
C
102
}
330
C
100
AcDbDictionary
281
     1
  3
Normal
350
F
100
AcDbDictionaryWithDefault
340
F
  0
DICTIONARY
  5
47
102
{ACAD_REACTORS
330
C
102
}
330
C
100
AcDbDictionary
281
     1
  3
A0
350
48
  3
A1
350
49
  3
A2
350
4A
  3
A3
350
4B
  3
A4
350
4C
  3
A5
350
4D
  3
A6
350
4E
  3
A7
350
4F
  3
A8
350
50
  3
A9
350
51
  3
B0
350
52
  3
B1
350
53
  3
B2
350
54
  3
B3
350
55
  3
B4
350
56
  3
B5
350
57
  3
B6
350
58
  3
B7
350
59
  3
B8
350
5A
  3
B9
350
5B
  3
C0
350
5C
  3
C1
350
5D
  3
C2
350
5E
  3
C3
350
5F
  3
C4
350
60
  3
C5
350
61
  3
C6
350
62
  3
C7
350
63
  3
C8
350
64
  3
C9
350
65
  3
D0
350
66
  3
D1
350
67
  3
D2
350
68
  0
LAYOUT
  5
1E
102
{ACAD_REACTORS
330
1A
102
}
330
1A
100
AcDbPlotSettings
  1

  2
none_device
  4

  6

 40
0.0
 41
0.0
 42
0.0
 43
0.0
 44
0.0
 45
0.0
 46
0.0
 47
0.0
 48
0.0
 49
0.0
140
0.0
141
0.0
142
1.0
143
1.0
 70
   688
 72
     1
 73
     0
 74
     5
  7

 75
    16
147
1.0
148
0.0
149
0.0
100
AcDbLayout
  1
Layout1
 70
     1
 71
     1
 10
0.0
 20
0.0
 11
420.0
 21
297.0
 12
0.0
 22
0.0
 32
0.0
 14
1.0000000000E+20
 24
1.0000000000E+20
 34
1.0000000000E+20
 15
-1.0000000000E+20
 25
-1.0000000000E+20
 35
-1.0000000000E+20
146
0.0
 13
0.0
 23
0.0
 33
0.0
 16
1.0
 26
0.0
 36
0.0
 17
0.0
 27
1.0
 37
0.0
 76
     0
330
1B
  0
LAYOUT
  5
26
102
{ACAD_REACTORS
330
1A
102
}
330
1A
100
AcDbPlotSettings
  1

  2
none_device
  4

  6

 40
0.0
 41
0.0
 42
0.0
 43
0.0
 44
0.0
 45
0.0
 46
0.0
 47
0.0
 48
0.0
 49
0.0
140
0.0
141
0.0
142
1.0
143
1.0
 70
   688
 72
     1
 73
     0
 74
     5
  7

 75
    16
147
1.0
148
0.0
149
0.0
100
AcDbLayout
  1
Layout2
 70
     1
 71
     2
 10
0.0
 20
0.0
 11
0.0
 21
0.0
 12
0.0
 22
0.0
 32
0.0
 14
0.0
 24
0.0
 34
0.0
 15
0.0
 25
0.0
 35
0.0
146
0.0
 13
0.0
 23
0.0
 33
0.0
 16
1.0
 26
0.0
 36
0.0
 17
0.0
 27
1.0
 37
0.0
 76
     0
330
23
  0
LAYOUT
  5
22
102
{ACAD_REACTORS
330
1A
102
}
330
1A
100
AcDbPlotSettings
  1

  2
none_device
  4
Letter_(8.50_x_11.00_Inches)
  6

 40
6.35
 41
6.35
 42
6.35000508
 43
6.35000508
 44
215.9
 45
279.4
 46
0.0
 47
0.0
 48
0.0
 49
0.0
140
0.0
141
0.0
142
1.0
143
1.0
 70
  1712
 72
     1
 73
     0
 74
     0
  7

 75
     0
147
1.0
148
0.0
149
0.0
100
AcDbLayout
  1
Model
 70
     1
 71
     0
 10
0.0
 20
0.0
 11
279.4
 21
215.9
 12
0.0
 22
0.0
 32
0.0
 14
0.0
 24
0.0
 34
0.0
 15
279.4
 25
215.9
 35
0.0
146
0.0
 13
0.0
 23
0.0
 33
0.0
 16
1.0
 26
0.0
 36
0.0
 17
0.0
 27
1.0
 37
0.0
 76
     0
330
1F
331
29
  0
MLINESTYLE
  5
18
102
{ACAD_REACTORS
330
17
102
}
330
17
100
AcDbMlineStyle
  2
Standard
 70
     0
  3

 62
   256
 51
90.0
 52
90.0
 71
     2
 49
0.5
 62
   256
  6
BYLAYER
 49
-0.5
 62
   256
  6
BYLAYER
  0
ACDBPLACEHOLDER
  5
F
102
{ACAD_REACTORS
330
E
102
}
330
E
  0
SCALE
  5
48
102
{ACAD_REACTORS
330
47
102
}
330
47
100
AcDbScale
 70
     0
300
1:1
140
1.0
141
1.0
290
     1
  0
SCALE
  5
49
102
{ACAD_REACTORS
330
47
102
}
330
47
100
AcDbScale
 70
     0
300
1:2
140
1.0
141
2.0
290
     0
  0
SCALE
  5
4A
102
{ACAD_REACTORS
330
47
102
}
330
47
100
AcDbScale
 70
     0
300
1:4
140
1.0
141
4.0
290
     0
  0
SCALE
  5
4B
102
{ACAD_REACTORS
330
47
102
}
330
47
100
AcDbScale
 70
     0
300
1:5
140
1.0
141
5.0
290
     0
  0
SCALE
  5
4C
102
{ACAD_REACTORS
330
47
102
}
330
47
100
AcDbScale
 70
     0
300
1:8
140
1.0
141
8.0
290
     0
  0
SCALE
  5
4D
102
{ACAD_REACTORS
330
47
102
}
330
47
100
AcDbScale
 70
     0
300
1:10
140
1.0
141
10.0
290
     0
  0
SCALE
  5
4E
102
{ACAD_REACTORS
330
47
102
}
330
47
100
AcDbScale
 70
     0
300
1:16
140
1.0
141
16.0
290
     0
  0
SCALE
  5
4F
102
{ACAD_REACTORS
330
47
102
}
330
47
100
AcDbScale
 70
     0
300
1:20
140
1.0
141
20.0
290
     0
  0
SCALE
  5
50
102
{ACAD_REACTORS
330
47
102
}
330
47
100
AcDbScale
 70
     0
300
1:30
140
1.0
141
30.0
290
     0
  0
SCALE
  5
51
102
{ACAD_REACTORS
330
47
102
}
330
47
100
AcDbScale
 70
     0
300
1:40
140
1.0
141
40.0
290
     0
  0
SCALE
  5
52
102
{ACAD_REACTORS
330
47
102
}
330
47
100
AcDbScale
 70
     0
300
1:50
140
1.0
141
50.0
290
     0
  0
SCALE
  5
53
102
{ACAD_REACTORS
330
47
102
}
330
47
100
AcDbScale
 70
     0
300
1:100
140
1.0
141
100.0
290
     0
  0
SCALE
  5
54
102
{ACAD_REACTORS
330
47
102
}
330
47
100
AcDbScale
 70
     0
300
2:1
140
2.0
141
1.0
290
     0
  0
SCALE
  5
55
102
{ACAD_REACTORS
330
47
102
}
330
47
100
AcDbScale
 70
     0
300
4:1
140
4.0
141
1.0
290
     0
  0
SCALE
  5
56
102
{ACAD_REACTORS
330
47
102
}
330
47
100
AcDbScale
 70
     0
300
8:1
140
8.0
141
1.0
290
     0
  0
SCALE
  5
57
102
{ACAD_REACTORS
330
47
102
}
330
47
100
AcDbScale
 70
     0
300
10:1
140
10.0
141
1.0
290
     0
  0
SCALE
  5
58
102
{ACAD_REACTORS
330
47
102
}
330
47
100
AcDbScale
 70
     0
300
100:1
140
100.0
141
1.0
290
     0
  0
SCALE
  5
59
102
{ACAD_REACTORS
330
47
102
}
330
47
100
AcDbScale
 70
     0
300
1/128" = 1'-0"
140
0.0078125
141
12.0
290
     0
  0
SCALE
  5
5A
102
{ACAD_REACTORS
330
47
102
}
330
47
100
AcDbScale
 70
     0
300
1/64" = 1'-0"
140
0.015625
141
12.0
290
     0
  0
SCALE
  5
5B
102
{ACAD_REACTORS
330
47
102
}
330
47
100
AcDbScale
 70
     0
300
1/32" = 1'-0"
140
0.03125
141
12.0
290
     0
  0
SCALE
  5
5C
102
{ACAD_REACTORS
330
47
102
}
330
47
100
AcDbScale
 70
     0
300
1/16" = 1'-0"
140
0.0625
141
12.0
290
     0
  0
SCALE
  5
5D
102
{ACAD_REACTORS
330
47
102
}
330
47
100
AcDbScale
 70
     0
300
3/32" = 1'-0"
140
0.09375
141
12.0
290
     0
  0
SCALE
  5
5E
102
{ACAD_REACTORS
330
47
102
}
330
47
100
AcDbScale
 70
     0
300
1/8" = 1'-0"
140
0.125
141
12.0
290
     0
  0
SCALE
  5
5F
102
{ACAD_REACTORS
330
47
102
}
330
47
100
AcDbScale
 70
     0
300
3/16" = 1'-0"
140
0.1875
141
12.0
290
     0
  0
SCALE
  5
60
102
{ACAD_REACTORS
330
47
102
}
330
47
100
AcDbScale
 70
     0
300
1/4" = 1'-0"
140
0.25
141
12.0
290
     0
  0
SCALE
  5
61
102
{ACAD_REACTORS
330
47
102
}
330
47
100
AcDbScale
 70
     0
300
3/8" = 1'-0"
140
0.375
141
12.0
290
     0
  0
SCALE
  5
62
102
{ACAD_REACTORS
330
47
102
}
330
47
100
AcDbScale
 70
     0
300
1/2" = 1'-0"
140
0.5
141
12.0
290
     0
  0
SCALE
  5
63
102
{ACAD_REACTORS
330
47
102
}
330
47
100
AcDbScale
 70
     0
300
3/4" = 1'-0"
140
0.75
141
12.0
290
     0
  0
SCALE
  5
64
102
{ACAD_REACTORS
330
47
102
}
330
47
100
AcDbScale
 70
     0
300
1" = 1'-0"
140
1.0
141
12.0
290
     0
  0
SCALE
  5
65
102
{ACAD_REACTORS
330
47
102
}
330
47
100
AcDbScale
 70
     0
300
1-1/2" = 1'-0"
140
1.5
141
12.0
290
     0
  0
SCALE
  5
66
102
{ACAD_REACTORS
330
47
102
}
330
47
100
AcDbScale
 70
     0
300
3" = 1'-0"
140
3.0
141
12.0
290
     0
  0
SCALE
  5
67
102
{ACAD_REACTORS
330
47
102
}
330
47
100
AcDbScale
 70
     0
300
6" = 1'-0"
140
6.0
141
12.0
290
     0
  0
SCALE
  5
68
102
{ACAD_REACTORS
330
47
102
}
330
47
100
AcDbScale
 70
     0
300
1'-0" = 1'-0"
140
12.0
141
12.0
290
     0
  0
ENDSEC
  0
EOF
